Make your own free website on Tripod.com

Encore #1
Joey Shelley


Capo on 4th fret

D#sus4: (222xxx)
C: (x32010)
Em: (022000)

Verse: 1 & 2
e|-----------------------------------------------------------------------------|
B|-----------------------------------------------------------------------------|
G|-----------------------------------------------------------------------------|
D|----0--------0-------2------2---------------------------------------------|
A|--0---0---2---2---2--2--2--2-------------------------------------------|
E|0-------0--------0-------2------------------------------------------------|

Verse 3: D#sus4-C-Em-D#sus4

Outro
e|---------------------------------------------------------------------------|
B|---------------------------------------------------------------------------|
G|---------------------------------------------------------------------------|
D|-----0---------------------------------------------------------------------|
A|---0--0--------------------------------------------------------------------|
E|-0-------------------------------------------------------------------------|

(Verse 1)
You aren't here,
You don't appear to be,
Such a sad, sad story,
Such a mindless tragedy,

(Verse 2)
You're copping out,
Like the police,
You can't actually believe,
You're stories.

(Verse 3)
I see you over there,
Minding your business,
Flinging you at the sun,
Why don't you stop?